Jom FoLLow MeMoLow..

Tuesday, January 29, 2008

Macam-macam










Thats Why Man Like Football...








Monday, January 28, 2008

November Rain

November Rain
Guns N' Roses


Note: I didn't write the chords for any of the guitar solos, just where there
were lyrics. For the solos, the chords are the same as during the previos
verse section.


Intro:

E Abm/Eb C#m B

E C#m B B


E C#m
When I look into your eyes

B
I can see a love restrained

E C#m
But darlin' when I hold you

B
Don't you know I feel the same

C#m F#
'Cause nothin' lasts forever

B
And we both know hearts can change

C#m F#
And it's hard to hold a candle

B
In the cold November rain

C#m F#
We've been through this such a long long time

B
Just tryin' to kill the pain

C#m
But lovers always come and lovers always go

F# B
And no one's really sure who's lettin' go today


Walking away

C#m
If we could take the time


to lay it on the line

F#
I could rest my head

B
Just knowin' that you were mine


All mine

E C#m
So if you want to love me

B
then darlin' don't refrain

E C#m
Or I'll just end up walkin'

B
In the cold November rain

E F#
Do you need some time...on your own

E F#
Do you need some time...all alone

E
Everybody needs some time...

F#
on their own

E F#
Don't you know you need some time...all alone

Ebm E B
I know it's hard to keep an open heart

Ebm E C#m
When even friends seem out to harm you

Ebm E C#m
But if you could heal a broken heart

Ebm E F#
Wouldn't time be out to charm you

E F#
Sometimes I need some time...on my own

E F#
Sometimes I need some time...all alone

E
Everybody needs some time...

F#
on their own

E F#
Don't you know you need some time...all alone

And when your fears subside
And shadows still remain
I know that you can love me {just use the chords from
When there's no one left to blame the beginning verse here
So never mind the darkness also... No big changes }
We still can find a way
'Cause nothin' lasts forever
Even cold November rain


[I haven't had a chance to figure out anything past this, when the piano kicks
in. That's a sort of B-G-A thing, though the 'B' isn't a B chord, as far as I
can tell. Can anyone finish this off? I won't have a chance to any time soon]

Herschel

--

November Rain - Guns N' Roses

ryanl44@aol.com (Ryan LeNoir)

In order to play this song you must drop all strings a 1/2 step.
Also listen to the song to find where to enter.
Most are whole notes but there are a few half notes stuck in
again listen to the album

E=Eb B=Bb G=Gb D=Db A=Ab E=Eb
_______________________________________________

C C

N.C. C
When I look into your eyes I can see the love restrained
N.C.
C
But darlin' when I hold you don't you know I feel the same
Dm G
C
Nothin' lasts forever and we both know hearts can change
Dm G
C
And it's hard to hold a candle in the cold November rain
F Dm

We've been through this such a long long time just tryin' to kill
C
the pain
F
But lovers always come and lovers always go an
Dm C
no one's really sure who's lettin' go today
F
If we could take time to lay it on the line I could
Dm C
rest my head just knowin' that you were the mine
Dm G C
So if you want to love me then darlin' don't refrain
Dm G
C
Or I'll just end up walking in the cold November rain
F G
Do you need some time on your own
F G
Do you need some time all alone
F G
Ooh everybody needs some time on their own
F G
Ooh, don't you know you need some time all alone
Em F C
I know it's hard to keep an open heart

Em F D
When even friends seem out to harm you
Em F C
But if you could heal a broken heart
Em F G
Wouldn't time be out to charm you

F Dm C F Dm
Guitar Solo I
C Dm G C Dm

G C F
G
Sometimes I need some time on my own
F G
Some times I need some time all alone
F G
Ooh everybody needs some time on their own
F G
Ooh don't you know you need some time all alone

F Dm C (repeat 2x)
Guitar Solo II

F Dm
C
And when your fears subside and shadows still remain
F Dm
C
I know that you can love me when there's no one left to blame
Dm G
C
So never mind the darkness we still can find a way
Dm G C
G/B
Nothin' lasts forever even cold November rain
Am G F G C G/B Am G F G C

C5* C5 C5
*w/dist.
C5 G5 F5 Eb5 Ab5 Bb5 C5 (repeat
5x)

______________________________________________________
Chord Dictionary

C X32010 Am 002210 Ab5 466XXX
F 133211 C5 X355XX Bb5 X133XX
G 320033 G5 355XXX
Dm XX0231 F5 133XXX
Em 022000 Eb5 X688XX

Patience ( Gun n Roses)

===========================

Intro:
C G A D C G A D
C G C Em C G D D

C
Shed a tear cause I'm missing you
G
I'm still allright to smile
A D
Girl I think about you every day now


C
Was a time when I wasn't sure
G
But you set my mind at ease
A D
There is no doubt, you're in my heart now


C G
Sad woman take it slow
C Em
It will work itself out fine
C G D
All we need is just a little patience


C G
Sad sugar make it slow and
C Em
It comes together fine
C G D
All we need is just a little patience


Sit here on the stairs
Cause I'd rather be alone
If I can't have you right now
I'll wait dear

Sometimes I get so candescent
But I can't speed up the time
You know love, there's one more thing
To consider


Sad woman take it slow
And things will be just fine
You and I just use a little patience

Sad sugar take the time
Cause the lights are shining bright
You and I got what it takes to make it


D
We don't fake it
D
Ahh and never break it
D
Cause I can't take it



Solo


G C
A little patience
G C
Mhh Yeah


G
I've been walking the streets tonight
C
Just trying to get it right
G
It's hard to see with so many around
C
Noone doesn't like my stucking the ground
G
And the streets don't change but maybe the name
C
I ain't got time for the game
G
Cause I need you
C
Yeah Yeah cause I need you
G
Uh I need you
D
Woh I need you
G C G
Uhh this time



Well, the lyrics are from a friend, who tried to figure them out. I don't guarantee they're absolutely
correct, but I guess they can give you a very good idea of the song. (Any corrections?)
Thus I could post a corrected version.

Did anyone figure out the Intro and Solo ?
Your posting would be appreciated!

Have fun playing it!!!!!


Alex (almost a real Schubert :)


--

When the doors of perception are cleansed, man will see how things truely are...
--------------------------------------------------------------------------------
schubert@ifi.unizh.ch


Received: from nevada.edu (animal-farm.nevada.edu) by redrock.nevada.edu (5.65c/M1.4)
with SMTP id ; Wed, 7 Oct 1992 21:40:52 -0700
Received: from csunb.mit.csu.edu.au by animal-farm.nevada.edu. id aa00658;
7 Oct 92 21:33 PDT
Received: from zac.riv.csu.edu.au by csunb.mit.csu.edu.au ; Thu, 8 Oct 1992 14:32:19 +1000
Received: from zac.riv.csu.edu.au by zac.riv.csu.edu.au (PMDF #2415 ) id
<01GPPJS0OY808WVYVR@zac.riv.csu.edu.au>; Thu, 8 Oct 1992 14:34:23 EST
Message-Id: <01GPPJS0P7V68WVYVR@zac.riv.csu.edu.au>
Organization: Charles Sturt University - Riverina, NSW, Australia
X-Envelope-To: JAMESB@NEVADA.EDU
X-Vms-To: JAMESB@NEVADA.EDU
Mime-Version: 1.0
Content-Transfer-Encoding: 7BIT



Guitar Solo to Patience
by: GnR


/ = slide
W = bend note up whole step
H = bend note up half step


-----------------8--7-|-8--------8/--10--8-------|------------------8--7--|
----------------------|-------------------10/-12-|-----------8------------|
----------------------|--------------------------|------------------------|
----------------------|--------------------------|------------------------|
----------------------|--------------------------|------------------------|
----------------------|--------------------------|------------------------|

-8-------8/-10--10/-12-|------------------8--7---|-8--------8/-10--8-------|
-----------------------|-------------------------|------------------10/-12-|
-----------------------|-------------------------|-------------------------|
-----------------------|-------------------------|-------------------------|
-----------------------|-------------------------|-------------------------|
-----------------------|-------------------------|-------------------------|

----------------10/-12-|-----10---10------12/-14-|----12----10------10-----|
---10---8--8--8--------|-------------------------|-------------------------|
-----------------------|-------------------------|-------------------------|
-----------------------|-------------------------|-------------------------|
-----------------------|-------------------------|-------------------------|
-----------------------|-------------------------|-------------------------|

------------------------|------------------------|-------------------------|
-------5--8-------------|------------------------|---------5--8------------|
---7-----------7---5--7-|-----4---7--------------|---7W---------7----5--7/-|
------------------------|--7W-------7H-----5-----|-------------------------|
------------------------|------------------------|-------------------------|
------------------------|------------------------|-------------------------|

----------------------------|-------------------------|-----------------------|
-------8--10W---8-----8--10-|--10W--10--8-10----8--10-|-8--10-----8--10-8-10-12-
----9-------------9---------|----------------9--------|------------------------
----------------------------|-------------------------|------------------------
----------------------------|-------------------------|------------------------
----------------------------|-------------------------|------------------------

----------------------------|
------10------10------------|
----------------------------|
----------------------------|
----------------------------|
----------------------------|

Basket Case (Green Day)

Basket Case
Green Day
Dookie (1994)
Lyrics: Billie Joe Armstrong
Music: Green Day
Tuning: 1/2 step down (sounds a semitone lower than written here)
Notes: Not much to say here, played fast with lots of distortion.

h = hammer-on
p = pull-off
b = bend
/ = slide up
\ = slide down
5 = power chord

Verse (second verse and bridge, use low E5 (022xx))
E5 B5 C#5 G#5 A5 E5 B5 (x2)
e|---------------------------------------------------------------|
B|---------------------------------------------------------------|
G|-9---------6--------------9------------------------------------|
D|-9----9----6----6----7----9----9-------------------------------|
A|-7----9----4----6----7----7----9-------------------------------|
E|------7---------4----5---------7-------------------------------|

Chorus
A5 B5 E5 (x2) A5 B5 E5 D5 C#5 A5 B5
e|---------------------------------------------------------------|
B|---------------------------------------------------------------|
G|-----------9--------------------9-\-7-\-6----------------------|
D|-7----9----9---------7----9-----9-\-7-\-6----7----9------------|
A|-7----9----7---------7----9-----7-\-5-\-4----7----9------------|
E|-5----7--------------5----7------------------5----7------------|

Bridge
E5 B5 C#5 B5
e|---------------------------------------------------------------|
B|---------------------------------------------------------------|
G|-9-------------------------------------------------------------|
D|-9----9----11---9----------------------------------------------|
A|-7----9----11---9----------------------------------------------|
E|------7----9----7----------------------------------------------|

Interlude
A5 B5
e|---------------------------------------------------------------|
B|---------------------------------------------------------------|
G|-----------(verse chords x2)-----------------------------------|
D|-7----9--------------------------------------------------------|
A|-7----9--------------------------------------------------------|
E|-5----7--------------------------------------------------------|

End Riff
E5 C#5 A5 E5 B5 (x4) A5 E5 B5
e|---------------------------------------------------------------|
B|---------------------------------------------------------------|
G|-9----6---------9----------------------------------------------|
D|-9----6----7----9----9--------\-7----2----9--------------------|
A|-7----4----7----7----9--------\-7----2----9--------------------|
E|-----------5---------7--------\-5----0----7--------------------|


Order

Verse 1 (palm mute)
Chorus (palm mute until walkdown)
Bridge (x2, single guitar)
Verse 2
Chorus
Bridge (x4)
Interlude
Verse chords x2, no lyrics
Chorus (palm mute until walkdown)
End Riff


Lyrics

Do you have the time
To listen to me whine
About nothing and everything
All at once
(Verse 1)
I am one of those
Melodramatic fools
Neurotic to the bone
No doubt about it

Sometimes I give myself the creeps
Sometimes my mind plays tricks on me
It all keeps adding up (Chorus)
I think I'm crackin up
Am I just parananoid
Am I just stoned

(Bridge)

I went to a shrink
To analyse my dreams
He said it's lack of sex
That's bringin me down
(Verse 2)
I went to a whore
He said my life's a bore
So quit my whinin
Cuz it's bringin her down

(Chorus)
(Bridge)
(Interlude)
(Chorus)

Enter Sandman (metallica)

Intro: (Play 12 times)
======

1|---------------------------------------------------------------------------
2|---------------------------------------------------------------------------
3|---------------------------------------------------------------------------
4|------------5--------------------------------------------------------------
5|--------7---------------7--------------------------------------------------
6|----0-----------6---5------------------------------------------------------


Rhythm Fill 1:
==============



1|---------------------------------------------------------------------------
2|---------------------------------------------------------------------------
3|---------------------------------------------------------------------------
4|---------------------------------------------------------------------------
5|--2---------------------------/7------------------------------/7-----------
6|--0---0---0---0---0---0---0--------0---0---0---0---0---0---0---------------

|-------------3x------------|





1|---------------------------------------------------------------------------
2|---------------------------------------------------------------------------
3|---------------------------------------------------------------------------
4|---------------------------------------------------------------------------
5|----------7------------------3\2-------------7-------------------3\2-------
6|--0---0------6---0---0---0---1\0-----0---0-------6---5---0---0---1\0-------

|-------------4x-------------| |--------------8x-------------|

When playing the F5-E5 pulloffs, the E5 is not strummed.
* Skip the F5-E5 pulloff on the 8th repetition.


Rhythm Fill 2:
==============

E5 G5 E5 G5 E5 F#5 G5 F#5

sl V PM------------------|

1|---------------------------------------------------------------------------
2|---------------------------------------------------------------------------
3|---------------------------------------------------------------------------
4|---------------------------------------------------------------------------
5|--2---2----/7--------------5-------5-------4---5---4-----------------------
6|--0---0---------6---5------3---0---3---0---2---3---2-----------------------

|-------3x--------|

(Repeat Rhythm Fill 2 once)








Rhythm Fill 3:
==============

E5 F5 E5 F5 E5

PM------------------| P PM-----------------------| P

1|---------------------------------------------------------------------------
2|---------------------------------------------------------------------------
3|---------------------------------------------------------------------------
4|---------------------------------------------------------------------------
5|--2----------------------------3\2-------------------------------3\2-------
6|--0---0---0---0---0---0---0----1\0---0---0---0---0---0---0---0---1\0-------



E5 G5 E5 G5 E5 F#5 G5 F#5


PM----------------------| PM-----------|

1|---------------------------------------------------------------------------
2|---------------------------------------------------------------------------
3|---------------------------------------------------------------------------
4|---------------------------------------------------------------------------
5|---------------------------------5-------5-------4---5---4-----------------
6|--0---0---0---0---0---0---0------3---0---3---0---2---3---2-----------------


Say your prayers, little one
Don't forget, my son
To include everyone

(Repeat Rhythm Fill 3 once)

Tuck you in, warm within
Keep you free from sin
Till the sandman comes



Bridge:
=======

F#5 E5 F5 F#5

PM--------------------------|

1|---------------------|-----------------------------------------------------
2|---------------------|-----------------------------------------------------
3|---------2-----------|-----------------------------------------------------
4|-----4---------------|-----------------------------------------------------
5|-------------3---2---|---4---4---4---4---4---2---3---4---------------------
6|--2------------------|---2---2---2---2---2---0---1---2---------------------

|------3x------|


Sleep with one eye open
Gripping your pillow tight



Chorus Fill:
============

F#5 C5 B5 F#5 C5 B5 F#5 C5 B5 E5

PM-----------|

1|---------------------------------------------------------------------------
2|---------------------------------------------------------------------------
3|----------------------------------------------------------------2----------
4|------5---4---------5---4---------5---4---------5---2---5---2-------2------
5|--4---3---2-----4---3---2-----4---3---2----2-------------------------------
6|--2-------------2-------------2------------0-------------------------------


Exit light
Enter night



F#5 C5 B5 E5 G5 F5 G5

PM----------| PM----------|

1|---------------------------------------------------------------------------
2|---------------------------------------------------------------------------
3|------------------------------------2--------------------------------------
4|------5---4---------5---2---5---2-------2----------------------------------
5|--4---3---2-----2----------------------------5-------5-------4---5---5-----
6|--2-------------0----------------------------3---0---3---0---2---3---3-----


Take my hand
We're off to never never land


(Repeat Rhythm Fill 2 twice)

Something's wrong, shut the light
Heavy thoughts tonight
And they aren't of Snow White
Dreams of War, dreams of lies
Dreams of dragon's fire
And of things that will bite, yeah!

(Repeat Bridge)

Sleep with one eye open
Gripping you pillow tight

(Repeat Chorus Fill)

Exit light
Enter night
Take my hand
Off to never-never land

(Repeat Rhythm Fill 2 twice)
(Repeat Bridge)
(Repeat Chorus Fill)
(Repeat Intro 8 times)

Now I lay me down to sleep
Pray the lord my soul to keep
If I die before I wake
Pray the lord my soul to take

(Repeat Bridge, 1st measure only, 6 times)

Hush little baby, don't say a word
And never mind that noise you heard
It's just the beasts under your bed,
In your closet, in your head

(Repeat Chorus Fill twice)

Exit light
Enter night
Take my hand
Off to never-never land

(Repeat Rhythm Fill 2 twice)

BOOM!

(Repeat Rhythm Fill 2 4 times)



Outro:
======

E5 F5 E5 F5 E5

PM PM--| P PM---------------------| P

1|---------------------------------------------------------------------------
2|---------------------------------------------------------------------------
3|---------------------------------------------------------------------------
4|---------------------------------------------------------------------------
5|--2-------7-------------------3\2-----------7------------------3\2---------
6|--0---0-------6---5---0---0---1\0---0---0------6---5---0---0---1\0---------

|-------------3x-------------|



F5 E5

PM--| PM------| P PM--------------------------|
1|---------------------------------------------------------------------------
2|---------------------------------------------------------------------------
3|---------------------------------------------------------------------------
4|---------------------------------------------------------------------------
5|----------7------------------3\2-------------7-----------------------------
6|--0---0------6---0---0---0---1\0-----0---0-------0---0---0---0---0---------

|------------4x--------------| |------------4x-------------|




PM------------------------------|

1|---------------------------------------------------------------------------
2|---------------------------------------------------------------------------
3|---------------------------------------------------------------------------
4|---------------------------------------------------------------------------
5|---------------------------------------------------------------------------
6|--0---0---0---0---0---0---0---0---0----------------------------------------

|--- Repeat while fading out ---|

//-->

Smells Like Teen Spirit

#----------------------------------PLEASE NOTE---------------------------------#
#This file is the author's own work and represents their interpretation of the #
#song. You may only use this file for private study, scholarship, or research. #
#------------------------------------------------------------------------------#

Nirvana - Smells like teen spirit.
Transcribed by: Szymon Andersen.


written in standard tuning, (EADGHE)


Intro and mainriff. (chords are F, Bb, G#, C#)

e------------------------------------------------------------]
h------------------------------------------------------------]
g------------------------3--3-------------------------6--6---]
D--3---3--3--------------3--3---6---6--6--------------6--6---]
A--3---3--3--x--x--x--x--1--1---6---6--6--x--x--x--x--4--4---]
E--1---1--1--x--x--x--x---------4---4--4--x--x--x--x---------]



Verses

e-----------1-----------------------------------]
h--1--------------------------------------------]
g-----------------------------------------------]
D-----------------------------------------------]
A-----------------------------------------------]
E-----------------------------------------------]


end of verses (play with distortion)




e-------1---------1---------1-------1--------1--]
h--1---------1---------1--------1-------1-------]
g-----------------------------------------------]
D-----------------------------------------------]
A-----------------------------------------------]
E-----------------------------------------------]


Hey!
e-----------------------------------------------]
h-----------------------------------------------]
g----------------3b-----------------------------]
D--3-----3--4---------3-----3--8--6-------------]
A--3--x--3--4---------3--x--3--8--6-------------]
E--1--x--1--2---------1--x--1--6--4-------------]




Solo:

e--------------------------------------------------------------------------]
h--------------------------------------------------------------------------]
g-------8----10-------8--8b--6--5---6-5------------------------------------]
D--10-------------6-----------------------8--6--8--8b--6--5----------------]
A--------------------------------------------------------------------------]
E--------------------------------------------------------------------------]


e-----------------------------------------------]
h-----------------------------------------------]
g-----------------------------------------------]
D---6---5---6---5---6---5---6>5--5>3------------]
A-----------------------------------------------]
E-----------------------------------------------]

Smoke On The Water

Title: Smoke on the Water
Artist: Deep Purple
Album: Made in Japan
Written by: Blackmore,Gilan,Glover,Lord,Paice
Tabbed by: Lukas Maes

This is the first time I tab a song, I hope I
didn抰 made to many faults. But if I did please
mail me: lukas_maes@hotmail.com

b = bend
r = release bend
p = pull off
~ = vibrato

riff
(G)(A#) (c) (c#)
e----------------------------------------------
B----------------------------------------------
G----------------------------------------------
D-5-8-10---5-8-11-10---5-8-10-8-5--------------
A-5-8-10---5-8-11-10---5-8-10-8-5--------------
E-3-6-8----3-6-9--8----3-6-8--6-3--------------

repeat riff 6x

verse:
We all came out to Montroux
On the Lake Geneva shoreline
To make records with a mobile
We didn抰 have much time
Frank Zappa and the Mothers
Were at the best place around
But some stupid with a flare gun
Burned the place to the ground

e----------------------------------------------
B---------repeat this--------------------------
G---------until the------then------------------
D-----5---the 2nd word------------3------------
A---5-----of the forth----------3--------------
E-3-------line----------------1----------------

Repeat this 2x

Chorus
e----------------------------------------------
B----------------------------------------------
G----------------------------------------------
D-10----8----------------5---------------------
A-10----8----------------5---------------------
E-8-----6----------------3---------------------
Smoke on the water and fire in the sky

e----------------------------------------------
B----------------------------------------------
G----------------------------------------------
D-10----8--------------------------------------
A-10----8--------------------------------------
E-8-----6--------------------------------------
Smoke on the water

repeat riff 2x

verse:
They Burned down the gambling house
It died with an awful sound
Funky & Claude was running in and out
Pulling kids out the ground
When it all was over
We had to find another place
Butt Swiss time was running out
It seemed we would lose the race

(guitar same as the first verse)

Chorus
play riff 2x

solo (riff is stopped, drum and bass go on)
e---------b8r-6---6---------6b-6---------------
B---6-8---------8-------6-8-----8--6-------6---
G-7-------------------7-----------7?0p9p7---7-
D----------------------------------------------
A----------------------------------------------
E----------------------------------------------

e----------6---6-8-b6-886----------------------
B-6-6-8~-----8-----------86--------------------
G--------------------------76765-------5-5-----
D-------------------------------85-8-7-----7-8~
A----------------------------------------------
E----------------------------------------------

e-----------------------6---6------------------
B--------------------6-8-868-86----------------
G-5---5---5--------------------765-6-b7b7b7b7~-
D---8---8---8-b5r~-----------------------------
A----------------------------------------------
E----------------------------------------------

e-------------6-b8-b8-b8-6-----6---------6-68--
B---6-8---6-8--------------8-8---8-6---68-8----
G-7-----7----------------------------7---------
D----------------------------------------------
A----------------------------------------------
E----------------------------------------------

e-b8-10-8-10-8-10-8-6--------------------------
B------------------------6----------------6---6
G----------------------7---7-5-7-5---5--7---7--
D----------------------------------8-----------
A----------------------------------------------
E----------------------------------------------

e---_------------------------------------------
B-b8--------_----------------*-b6--------------
G-------------------_--------------------------
D---------------------------_------------------
A----------------------------------------------
E---riff starts--------------------------------
*release the bend slowly while you hit the string
several times so that the last note is played at
the end of the first riff

play the riff a 2nd time

verse: (guitar stops, drum, bass and organ go on)
We ended up at the Grand Hotel
It was empty, cold and bare
But with the Rolling truck stones thing just outside
Making our music there
With a few red lights and a few old beds
We make a place to sweat
No matter what we get out of this
I know, I know we抣l never forget

(guitar same as the first verse)

Chorus

4x riff

organ solo
e----------------------------------------------
B----------------------------------------------
G----------------------------------------------
D-3-3-8-333------------------------------------
A-3-3-8-333------------------------------------
E-5-5-6-555------------------------------------

repeat several times while it fades out

Nothing Else Matter

.-/ .-.
_.-~ / _____ ______ __ _ _ _ ___ | ~-._
\:/ -~|| __||_ __// || | | | /| | / __/| .\:/
/ || __|:| |\:/ ' || |__| |_/:| || (:/:| \
/ /\/| ||____|:|_|:/_/|_||____|____||_|:\___\| |\ \
/ /:::|.:\::::\:\:\:|:||:||::::|:::://:/:/:::/:.|:\ \
/ /:::/ \::\::::\|\:\|:/|:||::::|::://:/\/:::/::/:::\ \
/ .::\ \-~~~~~~~ ~~~~ ~~ ~~~~~~~~ ~~ ~~~~~-/\/:.. \
/..:::::\ /:::::..\
/::::::::- MTO - Metallica Tabs Online -::::::::\
\:::::-~ metallitabs@gmx.de ~-:::::/
\:-~ http://www.metallitabs.cjb.net ~-:/

Nothing else matters
performed on Metallica (Black album)
tabbed by Max Mager; metallitabs@gmx.de

Timing 6/8

INTRO (acoustic guitar w/fingerpicks)
|-----------0--------|-----------0--------|-----------0--------|
|--------0-----0-----|--------0-----0-----|--------0-----0-----|
|-----0-----------0--|-----0-----------0--|-----0-----------0--|
|--------------------|--------------------|--------------------|
|--------------------|--------------------|--------------------|
|--0-----------------|--0-----------------|--0-----------------|

|-----------0-----7--|--7--------7p0-------|--------7--8--7h87\5-|--7--5/2------|
|--------0-----0-----|-----0-----0---0-----|--0-----0--0---------|--0--------5--|
|-----0--------------|--------0---------0--|-----0---------------|--------------|
|--------------------|---------------------|---------------------|--------------|
|--------------------|---------------------|---------------------|--------------|
|--0-----------------|--0------------------|--0------------------|--------------|

|-----------2p0-------|-----------0--0--0--|--0----------3p0-----0--|
|--5-----5------5-----|--------5-----5--5--|--5------5-------5---5--|
|-----5------------5--|-----5--------5--5--|--5----5---5-------5-5--|
|---------------------|--------------------|------------------------|
|--0------------------|--0-----------0--2--|--3--3---------------3--|
|---------------------|--------------------|------------------------|

N.H.......
|--0----------0h5p0---------|-------------12--------|-----------0--------|
|--7------7---------7p0-0h5-|-----12--12------0-----|--------0-----0-----|
|--7----7---7---------------|-----12-------------0--|-----0-----------0--|
|---------------------------|-----------------------|--------------------|
|--5--5---------------------|-----------------------|--------------------|
|---------------------------|--0--------------------|--0-----------------|

|-----------0--------|-----------0--------|------------7------|
|--------0-----0-----|--------0-----0-----|------------8------|
|-----0-----------0--|-----0-----------0--|----------9--------|
|--------------------|--------------------|--------9----------|
|--------------------|--------------------|------7------------|
|--0-----------------|--0-----------------|--0----------------|

|--------------------|------------7------|--------------------|
|--------7--------5--|------------8------|--------7--------5--|
|--------7--------5--|----------9--------|--------7--------5--|
|-----7--------5-----|--------9----------|-----7--------5-----|
|--5--------3--------|------7------------|--5--------3--------|
|--------------------|--0----------------|--------------------|

|Guitar I
|------------7------|--------------------|--------------------|
|------------8------|--------7--------5--|--------3--------4--|
|----------9--------|--------7--------5--|--------4--------2--|
|--------9----------|-----7--------5-----|-----5--------4-----|
|------7------------|--5--------3--------|-----------2--------|
|--0----------------|--------------------|--3-----------------|
| | | |
|Guitar II (acoustic guitar) | |
|------------7------|----5--------3------|----3--------2------|
|----------8--------|------7--------5----|------3--------4----|
|--------9----------|--------7--------5--|--------4--------2--|
|-------------------|--------------------|--------------------|
|-------------------|--------------------|--------------------|
|-------------------|--------------------|--------------------|

|Guitar I
|------------0--------|-----------0--------|
|---------0-----0-----|--------0-----0-----|
|------0-----------0--|-----0-----------0--|
|---------------------|--------------------|
|---------------------|--------------------|
|--0------------------|--0-----------------|
|
| Drop only, w/volume swell
| 1/5 (tremolo)
| \ /
|Guitar II \/
|--------------------|--12-----------------|
|--------------------|--12-----------------|
|-2p0--0-------------|--12-----------------|
|----4---------------|---------------------|
|--------------------|---------------------|
|--------------------|---------------------|

VERSE 1 (Rhy.fig.1)
|-----------3----0-----|--2----3-----0----------|-----------3----0-----|
|--------0---------0---|---------3------3-------|--------0---------0---|
|-----0--------0-----0-|-----------0------0-----|-----0--------0-----0-|
|----------------------|--0--0------------------|----------------------|
|----------------------|-------------3----------|----------------------|
|--0-------------------|--------------------3-2-|--0-------------------|

|--2---------------------|-----------3----0-----|--2----3-----3--------|
|-------3-----3----3-----|--------0---------0---|---------3------3-----|
|---------2p0----0-------|-----0--------0-----0-|-----------0-------0--|
|--0--0------------------|----------------------|--0--0----------------|
|-------------3----------|----------------------|-------------3--------|
|--------------------3-2-|--0-------------------|----------------------|

|--------3--2----2----|--0--------0--------|-----------0---------|
|--------3--0------0--|--------0-----0-----|--------0-----0------|
|-----0-----2---------|-----0-----------0--|-----0---------------|
|---------------------|--------------------|---------------------|
|-----------2--2------|--------------------|---------------------|
|--3------------------|--0-----------------|--0--------------3-2-|

VERSE 2
|Synth I (w/Rhy.fig1)
|---------------|-------------------|--------------|--------------------|
|---------------|-------------------|--------------|--------------------|
|--9------------|--11---12---9------|--------------|--11---12---12------|
|---------------|-------------------|--------------|--------------------|
|---------------|-------------------|--------------|--------------------|
|---------------|-------------------|--------------|--------------------|
| | | | |
|Synth II | | | |
|---------------|-------------------|--------------|--------------------|
|--8------------|--10---12---8------|--------------|--10---12---13------|
|---------------|-------------------|--------------|--------------------|
|---------------|-------------------|--------------|--------------------|
|---------------|-------------------|--------------|--------------------|
|---------------|-------------------|--------------|--------------------|

|Synth I
|----------------|-------------------|----------------|---------------|
|----------------|-------------------|----------------|---------------|
|--12------------|--11---12---9------|----------------|---------------|
|----------------|-------------------|--9-------------|---------------|
|----------------|-------------------|----------------|---------------|
|----------------|-------------------|----------------|---------------|
| | | | |
|Synth II | | | |
|----------------|-------------------|----------------|---------------|
|--12------------|--10---12---8------|--8------7------|---------------|
|----------------|-------------------|----------------|--9------------|
|----------------|-------------------|----------------|---------------|
|----------------|-------------------|----------------|---------------|
|----------------|-------------------|----------------|---------------|

VERSE 3 Acoustic guitar (w/rhy.fig.1)
|-------------------|-----------------|-------------------|-----------------|
|-------------------|-----------------|-------------------|-----------------|
|-------------------|-----------------|-------------------|-----------------|
|------5--5/7--7\5--|--4--------------|------5--5/7--7\5--|--4---0---0------|
|---7--7--7/9--9\7--|--5---7---7------|---7--7--7/9--9\7--|--5--------------|
|-0-----------------|-----------------|-0-----------------|-----------------|

|-------------------|-----------------|---------------------|-------------------|
|-------------------|-----------------|---------------------|----5--7--8--7--5--|
|-------------------|------0----------|---------------------|-------------------|
|------5--5/7--7\5--|--4-------2------|--0------------------|-------------------|
|---7--7--7/9--9\7--|--5-------3------|--2--2-3-2----2-3-2--|-------------------|
|-0-----------------|-----------------|---------------------|-------------------|

|| Fill 1 ||
||-----------5------||
||--8--7--5---------||
||------------------||
||------------------||
||------------------||
||------------------||

CHORUS (acoustic guitar)
w/fill 1 repeat twice
||--0---------|--2---2-2-2-3-2--0--2-|--0---------|--2---2-2-2-3-2--0--2--||
||*-1----2----|--3---3-3-3-3-3--3--3-|--1----2----|--3---3-3-3-3-3--3--3-*||
||--0----2----|--2---2-2-2-2-2--2--2-|--0----2----|--2---2-2-2-2-2--2--2--||
||*-2----2----|--0---0-0-0-0-0--0--0-|--2----2----|--0---0-0-0-0-0--0--0-*||
||--3----0----|----------------------|--3----0----|-----------------------||
||------------|----------------------|------------|-----------------------||

|Guitar I
|--0-----------------|--2--2-2-2--|--0------------|--------------|
|--1--------2--------|--3--3-3-3--|--0------------|--------------|
|--0--------2--------|--2--2-2-2--|--0------------|--------------|
|--2--------2--------|--0--0-0-0--|--2------------|--------------|
|--3--------0--------|------------|--2------------|--------------|
|--------------------|------------|--0------------|--------------|
| | | | |
|Guitar II (synth) | | | |
|--------------------|------------|---------------|--------------|
|--------------------|------------|---------------|--------------|
|--------------------|--------7---|--9------------|--------------|
|------2-5--------7--|------7-----|---------------|--------------|
|----3----------7----|----5-------|---------------|--------------|
|-------------5------|------------|---------------|--------------|
| | | | |
|Guitar III (acoustic guitar) | | |
|--------------------|------------|--------0------|--------0-----|
|--------------------|------------|------0---0----|------0---0---|
|--------------------|------------|----0-------0--|----0-------0-|
|--------------------|------------|---------------|--------------|
|--------------------|------------|---------------|--------------|
|--------------------|------------|--0------------|--0-----------|

INTERLUDE
|Guitar I (acoustic guitar)
|--12--------14--------|--15--------17--------|--8--------8--------|
|------12--------12----|------12--------12----|-----5--------5-----|
|----------------------|----------------------|--------5--------5--|
|----------------------|----------------------|--------------------|
|----------------------|----------------------|--------------------|
|----------------------|----------------------|--------------------|
| | | |
|Guitar II (acoustic guitar) | |
|--15--------17--------|--19--------20--------|--12----------------|
|------17--------17----|------17--------17----|------13------------|
|----------------------|----------------------|--------------------|
|----------------------|----------------------|--------------------|
|----------------------|----------------------|--------------------|
|----------------------|----------------------|--------------------|

|Guitar I
|----------8--------|--0----------0-----|--0----------0-----|
|-------5-----5-----|-----1----------1--|-----3----------3--|
|----5-----------5\-|--------0----------|--------2----------|
|-------------------|-------------------|-------------------|
|-------------------|-------------------|-------------------|
|-------------------|-------------------|-------------------|
| | | |
|Guitar II | | |
|-------------------|--11/12------------|--12/14------------|
|-------------------|---------13--------|---------15--------|
|-------------------|-------------12----|-------------14----|
|-------------------|-------------------|-------------------|
|-------------------|-------------------|-------------------|
|-------------------|-------------------|-------------------|

|Guitar I
|--0-7-------7-0-------|-----------0------|--12--------14--------|
|------0---------0-----|--------0---------|------12--------12----|
|---------0---------0--|-----0------------|----------------------|
|----------------------|------------------|----------------------|
|----------------------|------------------|----------------------|
|----------------------|--0---------------|----------------------|
| | | |
|Guitar II | | |
|-----12-----12--------|------------------|--15--------17--------|
|--12-----------12-----|------------------|------17--------17----|
|----------------------|------------------|----------------------|
|----------------------|------------------|----------------------|
|----------------------|------------------|----------------------|
|----------------------|------------------|----------------------|

|Guitar I
|--15--------17--------|--8--------8--------|----------8--------|
|------12--------12----|-----5--------5-----|-------5-----5-----|
|----------------------|--------5--------5--|----5-----------5\-|
|----------------------|--------------------|-------------------|
|----------------------|--------------------|-------------------|
|----------------------|--------------------|-------------------|
| | | |
|Guitar II | | |
|--19--------20--------|--12----------------|-------------------|
|------17--------17----|------13------------|-------------------|
|----------------------|--------------------|-------------------|
|----------------------|--------------------|-------------------|
|----------------------|--------------------|-------------------|
|----------------------|--------------------|-------------------|

|Guitar I
|--0----------0-----|--0----------0------------|--0--7-------7--0------|
|-----1----------1--|-----3----------3---------|-------0----------0----|
|--------0----------|--------2-----------------|----------0----------0-|
|-------------------|--------------------------|-----------------------|
|-------------------|--------------------------|-----------------------|
|-------------------|--------------------------|-----------------------|
| | | |
|Guitar II | | |
|--11/12------------|--------------------------|-----------------------|
|---------13--------|--------------------------|-----12-----12---------|
|-------------12----|----12--12h14---12h14-14b-|--12-------------------|
|-------------------|--------------------------|---------------14------|
|-------------------|--------------------------|-----------------------|
|-------------------|--------------------------|-----------------------|

|Guitar I
|-------------------0------------|---...----------|
|--------------0---------0-------|---...----------|
|---------0----------------------|---...----------|
|--------------------------------|---...----------|
|--------------------------------|---...----------|
|--0-----------------------------|---...----------|
| | |
|Guitar II | |
|--------------------------------|----------------|
|----15--15--15------------------|----------------|
|----14--14b-14r-12-----------12-|----------------|
|-------------------14--12h14----|--14------------|
|--------------------------------|----------------|
|--------------------------------|----------------|

BEFORE SOLO
|---------------------------|
|---------------------------|
|---------------------------|
|---------------------------|
|--7-7---------2-2-2-2-2-2--|
|------0-0-0-0-0-0-0-0-0-0--|
pm. . . . . . . . .

SOLO
|Guitar I (overdriven guitar)
|------------------------|----------------------------------|
|--15--------------------|----------------------------------|
|--14b---14br-12~--14-12-|--11h12p11----11---------12-14-12-|
|------------------------|-----------14----12-14~-----------|
|------------------------|----------------------------------|
|------------------------|----------------------------------|
| | |
|Guitar II (overdriven guitar) |
|------------------------|----------------------------------|
|------------------------|----------------------------------|
|------------------------|----------------------------------|
|-------------9------9---|--7----------7---------5----------|
|--2----2/7---7------7---|--5----------5---------3----------|
|--0---------------------|----------------------------3-2---|

|Guitar I
|--------12-------12-------------------|---------------------------|
|-----12-------12----15p12----12-------|----------14--14-13--------|
|--14b------14b------------15----15-14-|--12br----14--14-13-12\----|
|--------------------------------------|-------14------------------|
|--------------------------------------|---------------------------|
|--------------------------------------|---------------------------|
| | |
|Guitar II | |
|--------------------------------------|---------------------------|
|--------------------------------------|---------------------------|
|--------------------------------------|---------------------------|
|--------------------9---------9-------|----------7---7-----5------|
|--2------2/7--------7---------7-------|----------5---5-----3------|
|--0-----------------------------------|-----------------------3-2-|

|Guitar I
|--14/15--14~-----15--14~-15/17--|--15-14h15p14\12----15-14---------------|
|-------------12-----------------|-----------------12-------12------------|
|--------------------------------|-------------------------------12-14-12-|
|--------------------------------|----------------------------------------|
|--------------------------------|----------------------------------------|
|--------------------------------|----------------------------------------|
| | |
|Guitar II | |
|--------------------------------|----------------------------------------|
|--------------------------------|----------------------------------------|
|--------------------------------|----------------------------------------|
|----------------------9------9--|--7------------7----------5-------------|
|--2---------2/7-----7--------7--|--5------------5----------3-------------|
|--0-----------------------------|------------------------------------3-2-|

|Guitar I
|----------------------12------------|----------------|--------------|
|--15---------------12-----15-15b-12-|--15b-----------|--------------|
|--14br-12----12-14b-----------------|----------------|--------------|
|----------14------------------------|----------------|--------------|
|------------------------------------|----------------|--------------|
|------------------------------------|----------------|--------------|
| | | |
|Guitar II | let ring | |
|------------------------------------|----------------|--------------|
|------------------------------------|----------------|--------------|
|------------------------------------|----------------|--------------|
|--------------------------4---------|----------------|--------------|
|--5-----------------------2---------|--2-------------|--(2)---------|
|--3---------------------------------|--0-------------|--(0)---------|

|Guitar I
|---------------------|--------------------|
|--12h15p12\-------7\-|--5h7p5-------------|
|---------------------|--------------------|
|---------------------|--------------------|
|---------------------|--------------------|
|---------------------|--------------------|
| | |
|Guitar II | |
|-----------0---------|-----------0--------|
|--------0-----0------|--------0-----0-----|
|-----0-----------0---|-----0-----------0--|
|---------------------|--------------------|
|---------------------|--------------------|
|--0------------------|--0-----------------|

LAST VERSE (overdriven guitar)
(w/rhy.fig 1)
|-----------------|--------------|-----------------|--------------|
|--7--8---5-------|--------------|--7---8---3------|--------------|
|-----------------|--------------|-----------------|--------------|
|-----------------|--------------|-----------------|--------------|
|-----------------|--------------|-----------------|--------------|
|-----------------|--------------|-----------------|--------------|

|-----------------|
|--7---8---12-----|
|-----------------|
|-----------------|
|-----------------|
|-----------------|

ENDING (acoustic guitar)

|--0--------0--------|-----------0-----7--|--7--------7p0-------|
|--------0-----0-----|--------0-----0-----|-----0---------0-----|
|-----0-----------0--|-----0--------------|--------0---------0--|
|--------------------|--------------------|---------------------|
|--------------------|--------------------|---------------------|
|--0-----------------|--0-----------------|--0------------------|
(repeat and fade)
|--------7--8--7h-8p7\5-|--7--5\3-0--|
|--------0--0-----------|--0---------|
|-----0-----------------|------------|
|-----------------------|------------|
|-----------------------|------------|
|--0--------------------|------------|

INTRO

VERSE 1
So close no matter how far
Couldn't be much more from the heart
Forever trusting who we are
And nothing else matters

VERSE 2
Never opened myself this way
Life is ours, we live it our way
All these words i don't just say
And nothing else matters

VERSE 3
Trust I seek and I find in you
Every day for us something new
Open mind for a diffrent view
And nothing else matters

CHORUS
Never cared for what do
Never cared for what they know
And I know

VERSE 1

CHORUS

INTERLUDE

VERSE 2

VERSE 3

CHORUS
Never cared for what they say
Never cared for games they play
Never cared for what do
Never cared for what they know
And I know

BEFORE SOLO

SOLO

LAST VERSE
So close no matter how far
Couldn't be much more from the heart
Forever trusting who we are
And nothing else matters

ENDING

Knockin On Heaven' Door (Gun n roses)

I include my rendition of Slash's first solo in this transcription. I
think it's fairly accurate. I play a variation of the first solo because
people recognize it, but the second solo I improvise; and I don't feel like
figuring it out since Slash always plays something different in concert anyway.

Key: H - hammer-on
/ - slide
P - pull-off
^ - half bend
^^ - full bend
~ - vibrato

(ACK! Did we decide on a standard somewhere for ASCII tab notation. Could
someone send me a copy of the article since I apparently missed it.)

This is the picking at the very beginning of the song. The picking varies
throughout, and you should do whatever feels best instead of trying to
restrict yourself to how it sounds on record. GN'R is constantly mutating
this song in concert anyway (even doing it with a reggae beat).
G5 D C
-3---3--------------2-0-------|-----------------0--------------------|--------
-3-----3---3------3-----3---3-|----------1--------------1------------|--------
-0-------0------2---------2---|-0------0---0----------0---0-0------0-|--------
-0------------0---------------|-0-2----------2------2-------0-2------|--------
------------------------------|--H---3-----------------------H---3---|--------
-3----------------------------|--------------------------------------|--------

This is the picking for the first line. Again, the picking will vary
throughout the song.
G5 D Am
-3--------------2-------2-0-------|-0-----H-------0----------------------|
-3---3-------3--3-------3-------0-|-1----0-1-------------1---------------|
-0---0-----0----2----2-------2----|-2--2-----2---------2---2------0---0--|
-0---0-----0----0----0------------|-2----------2-----2-------0-2----2----|
----------------------------------|-0-------------------------H----------|
-3--------------------------------|--------------------------------------|


Song goes like this:

Intro:
Twice with picking G5 D C
Twice just power chords G5 D C

Verse 1 (with picking)
G5 D Am
Mamma take this badge from me
G5 D C
I can't use it anymore
G5 D Am
It's getting dark, too dark to see
G5 D C
Feels like I'm knockin' on heaven's door

Chorus (if you're really concerned about playing it like the
CD, listen to it for rhythm. But this song has been done by so
many people so differently that you might as well give it your own
feel.)
G5 D5 C5
Knock, knock, knockin' on heaven's door,
C5
Hey, hey, hey, hey, yeah
G5 D5 C5
Knock, knock, knockin' on heaven's door,
C5
(no lyrics)
G5 D5 C5
Ooh, knock, knock, knockin' on heaven's door
C5
Ooh yeah
G5 D5 C5
Knock, knock, knockin' on heaven's door
C5
Hey, hey, hey, hey, yeah

First Guitar Solo
G D C
------------------------------------------------------
----^^---P---------15--^------~~~~~~~~~~~~------------
-12-14-14-12-14-------14-12-12-------------------12---
------------------------------------------13/14-------
------------------------------------------------------
------------------------------------------------------
G D C
---------------P------------P--------P------------------15----
15/17---15---13-12-13/15--13-12---13--12----------12-13----13-
-------------------------------------------~~~~~~~------------
-----------------------------------------14-------------------
--------------------------------------------------------------
--------------------------------------------------------------
G ^^ D ^^ ^^ C
--~~~-------15-17--17--17--17--15-----------------------------
12---15/17----------------------------------------------------
--------------------------------------------------------------
--------------------------------------------------------------
--------------------------------------------------------------
--------------------------------------------------------------
G ^^ ^^ D C
--20-20-19-20--19-20--20-20-20---~~~~~----------------------------------
-------P-----------------------17------^^----^^-------------------------
---------------------------------------19-19-19-19-^-----^--------------
---------------------------------------------------19-19-19-19----------
---------------------------------------------------------------17--17---
------------------------------------------------------------------------


Additional lyrics:
Mama, put my guns in the ground
I can't shoot them anymore
That cold black cloud is comin' down
Feels like I'm knockin' on heaven's door

Basically there are lots of "knockin' on heaven's door"s throughout the rest






This is one of GUNS N' ROSES best song if you ask me.
I saw that no one had tabbed the second solo so I did as
well as the rest of the song. If you have any questions,
Comments, additions, or Corrections feel free to e-mail
them to me.
P.S. Tune your guitar down half a step.


Riff 1:-used in intro and the verses.

E|--3----3----------0---------------0--------------|
B|--3-----3-3--3---3-3-----------1---1--1----------|
G|--0------0---2--2---2-----------0---0--0------0--|
D|--X----------0-------0--0h2-2----2-------0h2-2---|
A|--2---------------------0h3--------------0h3-----|
E|--3----------------------------------------------|

E|-------3-----------0-----------------------||
B|--------3-3-------3-3------1----1--1-1-----||
G|--0------0---0h2-2---2-------0---0--0-0----||
D|--x----------0--------0---2---2---2----2---||
A|--2---------------------3------3--------3--||
E|--3----------------------------------------||


Riff 2:-used in intro and the choruses.

G D C C
E|-----|-----|-----|-----|
B|-----|-----|-----|-----|
G|--4--|--7--|--5--|--5--|
D|--5--|--7--|--5--|--5--|
A|--5--|--5--|--3--|--3--|
E|--3--|-----|-----|-----|


Solo 1:

E|-------------------------------------------------------|
B|-----------------15-------------------------15/17--15--|
G|--12-14brp12-14-----14br-1212~~~---------12------------|
D|--------------------------------------/14--------------|
A|-------------------------------------------------------|
E|-------------------------------------------------------|

E|----------------------------------------15----------15-|
B|-13p12-13/15---13p12-13---12--------1213--1312---/17---|
G|-------------------------------------------------------|
D|----------------------------14-------------------------|
A|-------------------------------------------------------|
E|-------------------------------------------------------|

E|-17br17---17br17br15-------22--20192019-22--20-2020----|
B|---------------------------------------------------17--|
G|-------------------------------------------------------|
D|-------------------------------------------------------|
A|-------------------------------------------------------|
E|-------------------------------------------------------|

E|--------------------15--||
B|--15brbr----------------||
G|----------14brbr--12----||
D|------------------------||
A|------------------------||
E|------------------------||


Solo 2:

E|-------------------------------------------------------|
B|--19b~~~~~~~r-19---19brp17-19-1717----20-17--20-17br---|
G|-------------------------------------------------------|
D|-------------------------------------------------------|
A|-------------------------------------------------------|
E|-------------------------------------------------------|

E|----------------------------------------16---18b-18p16-|
B|-1517--1517--------1517---------------13--16-----------|
G|-----------------------------------/13-----------------|
D|-----17----19br1719----19br19br17----------------------|
A|-------------------------------------------------------|
E|-------------------------------------------------------|

E|-1618P161620192022b--20192022b--20192022b-22b22b-------|
B|------------------------------------------------2022b--|
G|-------------------------------------------------------|
D|-------------------------------------------------------|
A|-------------------------------------------------------|
E|-------------------------------------------------------|

E|-------------------------------------------------------|
B|--2022br-202222b-202220--20~~---2019----19br-17191717--|
G|-------------------------------------------------------|
D|-------------------------------------------------------|
A|-------------------------------------------------------|
E|-------------------------------------------------------|

E|-------------------------------------------------------|
B|-2017--17~~15~~12~~~~~~--------------------------------|
G|------------------------12~--11~---11br-9~---7---5/4---|
D|----------------------------------------------------5--|
A|-------------------------------------------------------|
E|-------------------------------------------------------|


Here's The Order:

RIFF 1 (00:00) 1X
RIFF 2 (OO:15) 2X
RIFF 1 (OO:30) 2X
RIFF 2 (00:59) 4X
SOLO 1 (O1:29) 1X
RIFF 1 (01:59) 2X
RIFF 2 (02:27) 4X-play all the way through the solo until 3:54
SOLO 2 (02:56) 1X
RIFF 2 (04:51) 4x

There was an error in this gadget
Related Posts Plugin for WordPress, Blogger...
Grab this Widget ~ Blogger Accessories